0
SECTION
2
HEADER
9
$INSUNITS
70
4
9
$ACADVER
1
AC1014
9
$HANDSEED
5
FFFF
0
ENDSEC
0
SECTION
2
TABLES
0
TABLE
2
VPORT
5
8
100
AcDbSymbolTable
0
ENDTAB
0
TABLE
2
LTYPE
5
5
100
AcDbSymbolTable
0
LTYPE
5
14
100
AcDbSymbolTableRecord
100
AcDbLinetypeTableRecord
2
BYBLOCK
70
0
0
LTYPE
5
15
100
AcDbSymbolTableRecord
100
AcDbLinetypeTableRecord
2
BYLAYER
70
0
0
ENDTAB
0
TABLE
2
LAYER
5
2
100
AcDbSymbolTable
70
2
0
LAYER
5
50
100
AcDbSymbolTableRecord
100
AcDbLayerTableRecord
2
0
70
0
6
CONTINUOUS
0
ENDTAB
0
TABLE
2
STYLE
5
3
100
AcDbSymbolTable
70
1
0
STYLE
5
11
100
AcDbSymbolTableRecord
100
AcDbTextStyleTableRecord
2
STANDARD
70
0
0
ENDTAB
0
TABLE
2
VIEW
5
6
100
AcDbSymbolTable
70
0
0
ENDTAB
0
TABLE
2
UCS
5
7
100
AcDbSymbolTable
70
0
0
ENDTAB
0
TABLE
2
APPID
5
9
100
AcDbSymbolTable
70
2
0
APPID
5
12
100
AcDbSymbolTableRecord
100
AcDbRegAppTableRecord
2
ACAD
70
0
0
ENDTAB
0
TABLE
2
DIMSTYLE
5
A
100
AcDbSymbolTable
70
1
0
ENDTAB
0
TABLE
2
BLOCK_RECORD
5
1
100
AcDbSymbolTable
70
1
0
BLOCK_RECORD
5
1F
100
AcDbSymbolTableRecord
100
AcDbBlockTableRecord
2
*MODEL_SPACE
0
BLOCK_RECORD
5
1B
100
AcDbSymbolTableRecord
100
AcDbBlockTableRecord
2
*PAPER_SPACE
0
ENDTAB
0
ENDSEC
0
SECTION
2
BLOCKS
0
BLOCK
5
20
100
AcDbEntity
100
AcDbBlockBegin
2
*MODEL_SPACE
0
ENDBLK
5
21
100
AcDbEntity
100
AcDbBlockEnd
0
BLOCK
5
1C
100
AcDbEntity
100
AcDbBlockBegin
2
*PAPER_SPACE
0
ENDBLK
5
1D
100
AcDbEntity
100
AcDbBlockEnd
0
ENDSEC
0
SECTION
2
ENTITIES
0
LWPOLYLINE
5
100
100
AcDbEntity
8
0
100
AcDbPolyline
90
56
70
1
43
0.0
10
-26.907876656318315
20
3.0008783204798739
10
-26.907876656318315
20
0.059023012620524895
10
-26.966895376147964
20
0
10
-55.057117774022785
20
0
10
-55.11613506292214
20
0.059023012620542659
10
-55.11613506292214
20
28.149237778867136
10
-55.057117774022785
20
28.208253159859442
10
-52.115256742442284
20
28.208253159859442
10
-52.115256742442284
20
46.013467580691241
10
-55.057117774022785
20
46.013467580691241
10
-55.11613506292214
20
46.072482961683562
10
-55.11613506292214
20
64.159777624625491
10
-55.057117774022785
20
64.218793005617798
10
-52.115256742442284
20
64.218793005617812
10
-52.115256742442284
20
82.024007426449614
10
-55.057117774022785
20
82.024007426449614
10
-55.11613506292214
20
82.083022807441921
10
-55.11613506292214
20
110.17324520531673
10
-55.057117774022785
20
110.23226058630904
10
-26.966895376147964
20
110.23226058630904
10
-26.907878087248605
20
110.17324520531673
10
-26.907878087248616
20
107.23138226582917
10
-9.1026674822309062
20
107.23138226582917
10
-9.1026674822309062
20
110.17324520531673
10
-9.0436501933315405
20
110.23226058630904
10
9.043644469610399
20
110.23226058630904
10
9.1026598506027057
20
110.17324520531673
10
9.1026598506027057
20
107.23138226582917
10
26.907870455620397
20
107.23138226582917
10
26.907870455620397
20
110.17324520531673
10
26.966885836612704
20
110.23226058630904
10
55.057108234487515
20
110.23226058630904
10
55.116123615479822
20
110.17324520531673
10
55.116123615479822
20
82.083022807441921
10
55.057108234487515
20
82.024007426449614
10
52.115245294999966
20
82.024007426449614
10
52.115245294999966
20
64.218800637246019
10
55.057108234487515
20
64.218800637246019
10
55.116123615479822
20
64.159785256253713
10
55.116123615479822
20
46.072482961683548
10
55.057108234487515
20
46.013467580691241
10
52.115245294999966
20
46.013467580691234
10
52.115245294999966
20
28.208260791487643
10
55.057108234487515
20
28.208260791487643
10
55.116123615479822
20
28.149245410495336
10
55.116123615479822
20
0.059023012620524895
10
55.057108234487515
20
0
10
26.966889652426804
20
0
10
26.907874271434498
20
0.059023012620524895
10
26.907874271434498
20
3.0008783204798739
10
9.1026636664168059
20
3.0008783204798739
10
9.1026636664168059
20
0.059023012620524895
10
9.0436482854244993
20
0
10
-9.0436482854244993
20
0
10
-9.1026655743238472
20
0.059023012620524895
10
-9.1026655743238472
20
3.0008783204798739
0
LWPOLYLINE
5
101
100
AcDbEntity
8
0
100
AcDbPolyline
90
4
70
1
43
0.0
10
12.752972499903308
20
91.740188674613208
10
-12.752976780330929
20
91.740188674613208
10
-12.752976780330929
20
73.729269098149345
10
12.752972499903308
20
73.729269098149345
0
LWPOLYLINE
5
102
100
AcDbEntity
8
0
100
AcDbPolyline
90
11
70
1
43
0.0
10
-19.529763588850511
20
100.12217109239347
10
-19.529763588850511
20
102.30561808305737
10
-17.346312782372522
20
102.30562571468559
10
-16.618495846879853
20
103.03343883436413
10
-16.618495846879853
20
104.00386141502103
10
-20.500189985321509
20
104.00386141502103
10
-21.228006920814178
20
103.27604829534246
10
-21.228006920814178
20
98.42392776042982
10
-17.346312782372522
20
98.42392776042982
10
-16.618495846879853
20
99.151748511736599
10
-16.618495846879853
20
100.12217109239347
0
LINE
5
103
100
AcDbEntity
8
0
100
AcDbLine
10
-15.405467621058744
20
99.394350341086707
30
0
11
-16.375890201715642
21
99.394350341086707
31
0
0
LINE
5
104
100
AcDbEntity
8
0
100
AcDbLine
10
-16.375890201715642
20
99.394350341086707
30
0
11
-16.375890201715634
21
102.30562571468559
31
0
0
LINE
5
105
100
AcDbEntity
8
0
100
AcDbLine
10
-16.375890201715634
20
102.30562571468559
30
0
11
-14.677646869751975
21
104.00385378339281
31
0
0
LINE
5
106
100
AcDbEntity
8
0
100
AcDbLine
10
-14.677646869751975
20
104.00385378339281
30
0
11
-12.736801708438197
21
104.00385378339281
31
0
0
LINE
5
107
100
AcDbEntity
8
0
100
AcDbLine
10
-12.736801708438197
20
104.00385378339281
30
0
11
-12.736809340066415
21
103.03308777946623
31
0
0
LINE
5
108
100
AcDbEntity
8
0
100
AcDbLine
10
-12.736809340066415
20
103.03308777946623
30
0
11
-13.222020630394855
21
102.30527465978766
31
0
0
LINE
5
109
100
AcDbEntity
8
0
100
AcDbLine
10
-13.222020630394855
20
102.30527465978766
30
0
11
-13.48390758424614
21
102.30227542989887
31
0
0
LINE
5
110
100
AcDbEntity
8
0
100
AcDbLine
10
-14.920256330730304
20
99.879569263043365
30
0
11
-14.677650685566075
21
100.12217109239347
31
0
0
LINE
5
111
100
AcDbEntity
8
0
100
AcDbLine
10
-14.677650685566075
20
100.12217109239347
30
0
11
-13.464622459744966
21
100.12217109239347
31
0
0
LINE
5
112
100
AcDbEntity
8
0
100
AcDbLine
10
-13.464622459744966
20
100.12217109239347
30
0
11
-13.48390758424614
21
102.30227542989887
31
0
0
LINE
5
113
100
AcDbEntity
8
0
100
AcDbLine
10
-13.48390758424614
20
102.30227542989887
30
0
11
-13.483236000963164
21
102.54787648913776
31
0
0
LINE
5
114
100
AcDbEntity
8
0
100
AcDbLine
10
-13.483236000963164
20
102.54787648913776
30
0
11
-14.920256330730304
21
102.54787648913776
31
0
0
LINE
5
115
100
AcDbEntity
8
0
100
AcDbLine
10
-14.920256330730304
20
102.54787648913776
30
0
11
-14.920256330730304
21
99.879569263043365
31
0
0
LINE
5
116
100
AcDbEntity
8
0
100
AcDbLine
10
-14.920256330730304
20
99.879569263043365
30
0
11
-15.162858160080415
21
99.394357972714928
31
0
0
LINE
5
117
100
AcDbEntity
8
0
100
AcDbLine
10
-15.162858160080415
20
99.394357972714928
30
0
11
-15.405467621058744
21
99.394350341086707
31
0
0
LINE
5
118
100
AcDbEntity
8
0
100
AcDbLine
10
-15.405467621058744
20
99.394350341086707
30
0
11
-15.405463805244644
21
98.423935392058027
31
0
0
LINE
5
119
100
AcDbEntity
8
0
100
AcDbLine
10
-15.405463805244644
20
98.423935392058027
30
0
11
-13.464618643930866
21
98.423935392058027
31
0
0
LINE
5
120
100
AcDbEntity
8
0
100
AcDbLine
10
-13.464618643930866
20
98.423935392058027
30
0
11
-11.766382943595417
21
100.12183530075198
31
0
0
LINE
5
121
100
AcDbEntity
8
0
100
AcDbLine
10
-11.766382943595417
20
100.12183530075198
30
0
11
-11.766382943595417
21
103.03309541109444
31
0
0
LINE
5
122
100
AcDbEntity
8
0
100
AcDbLine
10
-11.766382943595417
20
103.03309541109444
30
0
11
-12.736809340066415
21
103.03308777946623
31
0
0
LINE
5
123
100
AcDbEntity
8
0
100
AcDbLine
10
-9.3191143813275623
20
99.467217127290581
30
0
11
-10.343816917668889
21
99.467217127290581
31
0
0
LINE
5
124
100
AcDbEntity
8
0
100
AcDbLine
10
-10.343816917668889
20
99.467217127290581
30
0
11
-10.865568443894276
21
98.945457969436958
31
0
0
LINE
5
125
100
AcDbEntity
8
0
100
AcDbLine
10
-10.865568443894276
20
98.945457969436958
30
0
11
-10.865568443894293
21
98.771548425656718
31
0
0
LINE
5
126
100
AcDbEntity
8
0
100
AcDbLine
10
-10.865568443894293
20
98.771548425656718
30
0
11
-11.56123714552816
21
98.771548425656718
31
0
0
LINE
5
127
100
AcDbEntity
8
0
100
AcDbLine
10
-11.56123714552816
20
98.771548425656718
30
0
11
-11.561237145528143
21
99.467224758918803
31
0
0
LINE
5
128
100
AcDbEntity
8
0
100
AcDbLine
10
-11.561237145528143
20
99.467224758918803
30
0
11
-11.557337383509907
21
99.723227727415747
31
0
0
LINE
5
129
100
AcDbEntity
8
0
100
AcDbLine
10
-11.557337383509907
20
99.723227727415747
30
0
11
-10.343816917668889
21
100.68463735514985
31
0
0
LINE
5
130
100
AcDbEntity
8
0
100
AcDbLine
10
-10.343816917668889
20
100.68463735514985
30
0
11
-8.9524833302152551
21
100.68463735514985
31
0
0
LINE
5
131
100
AcDbEntity
8
0
100
AcDbLine
10
-8.9524833302152551
20
100.68463735514985
30
0
11
-8.9525024092857919
21
99.988961021887775
31
0
0
LINE
5
132
100
AcDbEntity
8
0
100
AcDbLine
10
-8.9525024092857919
20
99.988961021887775
30
0
11
-8.2568337076519249
21
99.988961021887775
31
0
0
LINE
5
133
100
AcDbEntity
8
0
100
AcDbLine
10
-8.2568337076519249
20
99.988961021887775
30
0
11
-8.2588331942444526
21
99.490333329156044
31
0
0
LINE
5
134
100
AcDbEntity
8
0
100
AcDbLine
10
-8.2588331942444526
20
99.490333329156044
30
0
11
-9.8220615756293839
21
97.90195491698617
31
0
0
LINE
5
135
100
AcDbEntity
8
0
100
AcDbLine
10
-9.8220615756293839
20
97.90195491698617
30
0
11
-8.2568108127672879
21
97.90195491698617
31
0
0
LINE
5
136
100
AcDbEntity
8
0
100
AcDbLine
10
-8.2568108127672879
20
97.90195491698617
30
0
11
-8.2568108127672879
21
97.206293846980515
31
0
0
LINE
5
137
100
AcDbEntity
8
0
100
AcDbLine
10
-8.2568108127672879
20
97.206293846980515
30
0
11
-8.7785623389926748
21
96.684542320755114
31
0
0
LINE
5
138
100
AcDbEntity
8
0
100
AcDbLine
10
-8.7785623389926748
20
96.684542320755114
30
0
11
-11.561233329714042
21
96.684542320755114
31
0
0
LINE
5
139
100
AcDbEntity
8
0
100
AcDbLine
10
-11.561233329714042
20
96.684542320755114
30
0
11
-11.561233329714042
21
97.380203390760755
31
0
0
LINE
5
140
100
AcDbEntity
8
0
100
AcDbLine
10
-11.561233329714042
20
97.380203390760755
30
0
11
-8.9524985934716916
21
99.815043846479313
31
0
0
LINE
5
141
100
AcDbEntity
8
0
100
AcDbLine
10
-8.9524985934716916
20
99.815043846479313
30
0
11
-8.9525024092857919
21
99.988961021887775
31
0
0
LWPOLYLINE
5
142
100
AcDbEntity
8
0
100
AcDbPolyline
90
4
70
1
43
0.0
10
-2.3047551505625563
20
101.82061284669075
10
-0.59179803939894526
20
101.82061284669075
10
-0.5885851239201223
20
102.54742622307305
10
-2.3047551505625563
20
102.54842596636931
0
LWPOLYLINE
5
143
100
AcDbEntity
8
0
100
AcDbPolyline
90
14
70
1
43
0.0
10
0.84912205238643068
20
103.03363725669776
10
0.84912205238643068
20
99.151954565698418
10
0.12130511689377954
20
98.424118551135223
10
-0.60651181859888936
20
98.421119321246437
10
-0.60651181859890713
20
100.60738238272192
10
-2.3047513347484561
20
100.60738238272192
10
-2.3047513347484561
20
99.151748511736599
10
-2.7899626250768961
20
98.42392776042982
10
-3.7603852057337761
20
98.42392776042982
10
-3.7603852057337761
20
102.30562571468559
10
-3.517779560569565
20
102.5482275440357
10
-2.0621456895842272
20
104.00386141502103
10
-0.12130052827044935
20
104.00386141502103
10
-0.12130052827044935
20
103.03343883436413
0
LINE
5
144
100
AcDbEntity
8
0
100
AcDbLine
10
1.0917238817365416
20
98.42392776042982
30
0
11
1.0917238817365416
21
103.27604829534246
31
0
0
LINE
5
145
100
AcDbEntity
8
0
100
AcDbLine
10
1.0917238817365416
20
103.27604829534246
30
0
11
1.8195408172292105
21
104.00386141502103
31
0
0
LINE
5
146
100
AcDbEntity
8
0
100
AcDbLine
10
1.8195408172292105
20
104.00386141502103
30
0
11
3.7603859785429883
21
104.00386141502103
31
0
0
LINE
5
147
100
AcDbEntity
8
0
100
AcDbLine
10
3.7603859785429883
20
104.00386141502103
30
0
11
3.7603859785429883
21
103.03343883436413
31
0
0
LINE
5
148
100
AcDbEntity
8
0
100
AcDbLine
10
3.7603859785429883
20
103.03343883436413
30
0
11
3.0325690430503194
21
102.30562571468559
31
0
0
LINE
5
149
100
AcDbEntity
8
0
100
AcDbLine
10
3.0325690430503194
20
102.30562571468559
30
0
11
2.7899633978861083
21
102.30562571468559
31
0
0
LINE
5
150
100
AcDbEntity
8
0
100
AcDbLine
10
2.7899633978861083
20
102.30562571468559
30
0
11
2.7899633978860905
21
99.151756143364793
31
0
0
LINE
5
151
100
AcDbEntity
8
0
100
AcDbLine
10
2.7899633978860905
20
99.151756143364793
30
0
11
2.0621464623934216
21
98.423935392058027
31
0
0
LINE
5
152
100
AcDbEntity
8
0
100
AcDbLine
10
2.0621464623934216
20
98.423935392058027
30
0
11
1.0917238817365416
21
98.42392776042982
31
0
0
LINE
5
153
100
AcDbEntity
8
0
100
AcDbLine
10
4.9734180201781975
20
98.42392776042982
30
0
11
4.9734180201781975
21
102.30562571468559
31
0
0
LINE
5
154
100
AcDbEntity
8
0
100
AcDbLine
10
4.9734180201781975
20
102.30562571468559
30
0
11
4.7308123750139863
21
102.30562571468559
31
0
0
LINE
5
155
100
AcDbEntity
8
0
100
AcDbLine
10
4.7308123750139863
20
102.30562571468559
30
0
11
4.7308123750139863
21
101.09259367305036
31
0
0
LINE
5
156
100
AcDbEntity
8
0
100
AcDbLine
10
4.7308123750139863
20
101.09259367305036
30
0
11
4.0029954395213174
21
100.36478055337182
31
0
0
LINE
5
157
100
AcDbEntity
8
0
100
AcDbLine
10
4.0029954395213174
20
100.36478055337182
30
0
11
3.0325728588644196
21
100.36478055337182
31
0
0
LINE
5
158
100
AcDbEntity
8
0
100
AcDbLine
10
3.0325728588644196
20
100.36478055337182
30
0
11
3.0325690430503194
21
102.30562571468559
31
0
0
LINE
5
159
100
AcDbEntity
8
0
100
AcDbLine
10
3.0325690430503194
20
102.30562571468559
30
0
11
3.7603859785429883
21
103.03343883436413
31
0
0
LINE
5
160
100
AcDbEntity
8
0
100
AcDbLine
10
3.7603859785429883
20
103.03343883436413
30
0
11
4.0029954395213174
21
103.03343883436413
31
0
0
LINE
5
161
100
AcDbEntity
8
0
100
AcDbLine
10
4.0029954395213174
20
103.03343883436413
30
0
11
4.7308123750139863
21
104.00386141502103
31
0
0
LINE
5
162
100
AcDbEntity
8
0
100
AcDbLine
10
4.7308123750139863
20
104.00386141502103
30
0
11
6.6716575363277641
21
104.00386141502103
31
0
0
LINE
5
163
100
AcDbEntity
8
0
100
AcDbLine
10
6.6716575363277641
20
104.00386141502103
30
0
11
6.6716575363277464
21
99.151748511736599
31
0
0
LINE
5
164
100
AcDbEntity
8
0
100
AcDbLine
10
6.6716575363277464
20
99.151748511736599
30
0
11
5.9438406008350775
21
98.42392776042982
31
0
0
LINE
5
165
100
AcDbEntity
8
0
100
AcDbLine
10
5.9438406008350775
20
98.42392776042982
30
0
11
4.9734180201781975
21
98.42392776042982
31
0
0
LWPOLYLINE
5
166
100
AcDbEntity
8
0
100
AcDbPolyline
90
4
70
1
43
0.0
10
9.8255309234626331
20
102.30561808305737
10
9.8255309234626331
20
102.06300862207904
10
8.6125026976415242
20
102.06300862207904
10
8.6125026976415242
20
102.30561808305737
0
LWPOLYLINE
5
167
100
AcDbEntity
8
0
100
AcDbPolyline
90
9
70
1
43
0.0
10
6.9142631814919753
20
103.27604066371424
10
6.9142631814919753
20
98.423920128801612
10
7.8846857621488553
20
98.423920128801612
10
8.6125026976415242
20
99.151740880108377
10
8.6125026976415242
20
100.36476529011537
10
10.795953504119531
20
100.36476529011537
10
11.5237742554263
20
101.09257840979394
10
11.5237742554263
20
104.00385378339281
10
7.6420801169846442
20
104.00385378339281
0
LWPOLYLINE
5
168
100
AcDbEntity
8
0
100
AcDbPolyline
90
16
70
1
43
0.0
10
11.766376084776411
20
103.27604829534246
10
11.766376084776411
20
98.42392776042982
10
15.64805114414753
20
98.423935392058027
10
16.375871895454299
20
99.151756143364793
10
16.375871895454299
20
100.12217872402169
10
13.464604153483641
20
100.12217872402169
10
13.464604153483641
20
100.36478055337182
10
14.677636195118868
20
100.36478055337182
10
15.405456946425637
20
101.09259367305036
10
15.405456946425637
20
102.06301625370726
10
13.46461178511186
20
102.06301625370726
10
13.46461178511186
20
102.30562571468559
10
15.648066407403967
20
102.30562571468559
10
16.375887158710736
20
103.03343883436413
10
16.375887158710736
20
104.00386141502103
10
12.49419683608318
20
104.00386141502103
0
LWPOLYLINE
5
169
100
AcDbEntity
8
0
100
AcDbPolyline
90
8
70
1
43
0.0
10
16.618496619689065
20
103.27604829534246
10
16.618496619689065
20
98.42392776042982
10
20.500186942316621
20
98.423935392058027
10
21.22800769362339
20
99.151756143364793
10
21.228007693623372
20
100.12217872402169
10
18.316739951652714
20
100.12217872402169
10
18.316739951652732
20
104.00386141502103
10
17.346317370995834
20
104.00386141502103
0
ARC
5
170
100
AcDbEntity
8
0
100
AcDbCircle
10
8.0146924261725871e-05
20
51.014506660642496
30
0
40
3.7293457297727004
210
0
220
0
230
-1
100
AcDbArc
50
0.0046509957073410024
51
89.844246335114917
0
ARC
5
171
100
AcDbEntity
8
0
100
AcDbCircle
10
8.0136066546998563e-05
20
51.014912644857773
30
0
40
3.7293457297727208
210
0
220
-0
230
-1
100
AcDbArc
50
320.02346334900989
51
359.99841365984594
0
LINE
5
172
100
AcDbEntity
8
0
100
AcDbLine
10
-2.8579061437574538
20
48.618905532610512
30
0
11
-2.8579061437574538
21
22.009640609701329
31
0
0
LINE
5
173
100
AcDbEntity
8
0
100
AcDbLine
10
-2.8579061437574538
20
22.009640609701329
30
0
11
2.8581466860020477
21
22.009640609701329
31
0
0
LINE
5
174
100
AcDbEntity
8
0
100
AcDbLine
10
2.8581466860020477
20
22.009640609701329
30
0
11
2.8581466860020477
21
48.618905532610519
31
0
0
ARC
5
175
100
AcDbEntity
8
0
100
AcDbCircle
10
0.00019620339241299689
20
51.014296001578373
30
0
40
3.7293457297727013
210
0
220
0
230
-1
100
AcDbArc
50
179.99211254502177
51
219.96417485487328
0
ARC
5
176
100
AcDbEntity
8
0
100
AcDbCircle
10
0.00019622529956464518
20
51.014492894565855
30
0
40
3.7293457297727168
210
0
220
0
230
-1
100
AcDbArc
50
90.004862490779871
51
179.99513750925396
0
ARC
5
177
100
AcDbEntity
8
0
100
AcDbCircle
10
0.0050529233939222706
20
51.014496469158601
30
0
40
3.7293457185776417
210
0
220
0
230
-1
100
AcDbArc
50
89.920645721152368
51
90.079478366693266
0
CIRCLE
5
178
100
AcDbEntity
8
0
100
AcDbCircle
10
3.1405065747946992e-06
20
38.104589188887694
30
0
40
14.972958402285064
210
0
220
0
230
-1
0
LWPOLYLINE
5
179
100
AcDbEntity
8
0
100
AcDbPolyline
90
4
70
1
43
0.0
10
-34.159999754833933
20
107.23139376138128
10
-44.663073876513444
20
107.23139376138128
10
-44.663073876513444
20
99.229051573434958
10
-34.159999754833933
20
99.229051573434958
0
LWPOLYLINE
5
180
100
AcDbEntity
8
0
100
AcDbPolyline
90
4
70
1
43
0.0
10
-39.145893028446793
20
96.042293848320725
10
-48.542756012150406
20
96.042293848320725
10
-48.542756012150406
20
98.865350122456704
10
-39.145893028446793
20
98.865350122456704
0
LWPOLYLINE
5
181
100
AcDbEntity
8
0
100
AcDbPolyline
90
4
70
1
43
0.0
10
-35.978225639530777
20
92.513474005797164
10
-48.542756012150406
20
92.513474005797164
10
-48.542756012150406
20
95.336530279933115
10
-35.978225639530777
20
95.336530279933115
0
LINE
5
182
100
AcDbEntity
8
0
100
AcDbLine
10
-2.8618605618646598e-06
20
110.23226058630904
30
0
11
0
21
0
31
0
0
CIRCLE
5
183
100
AcDbEntity
8
0
100
AcDbCircle
10
-0.014977684576251704
20
38.129246750798679
30
0
40
20.000000000000004
210
0
220
0
230
1
0
CIRCLE
5
184
100
AcDbEntity
8
0
100
AcDbCircle
10
-20.929359550108888
20
50.204170750798582
30
0
40
1.6500000000000012
210
0
220
0
230
1
0
CIRCLE
5
185
100
AcDbEntity
8
0
100
AcDbCircle
10
-0.014977684576216177
20
13.979398750798877
30
0
40
1.6500000000000012
210
0
220
0
230
1
0
CIRCLE
5
186
100
AcDbEntity
8
0
100
AcDbCircle
10
20.89940418095642
20
50.204170750798589
30
0
40
1.6500000000000012
210
0
220
0
230
1
0
ENDSEC
0
SECTION
2
OBJECTS
0
DICTIONARY
5
C
100
AcDbDictionary
3
ACAD_GROUP
350
D
3
ACAD_MLINESTYLE
350
17
0
DICTIONARY
5
D
100
AcDbDictionary
0
DICTIONARY
5
1A
330
C
100
AcDbDictionary
0
DICTIONARY
5
17
100
AcDbDictionary
0
ENDSEC
0
EOF
