0
SECTION
2
HEADER
9
$INSUNITS
70
4
9
$ACADVER
1
AC1014
9
$HANDSEED
5
FFFF
0
ENDSEC
0
SECTION
2
TABLES
0
TABLE
2
VPORT
5
8
100
AcDbSymbolTable
0
ENDTAB
0
TABLE
2
LTYPE
5
5
100
AcDbSymbolTable
0
LTYPE
5
14
100
AcDbSymbolTableRecord
100
AcDbLinetypeTableRecord
2
BYBLOCK
70
0
0
LTYPE
5
15
100
AcDbSymbolTableRecord
100
AcDbLinetypeTableRecord
2
BYLAYER
70
0
0
ENDTAB
0
TABLE
2
LAYER
5
2
100
AcDbSymbolTable
70
2
0
LAYER
5
50
100
AcDbSymbolTableRecord
100
AcDbLayerTableRecord
2
0
70
0
6
CONTINUOUS
0
ENDTAB
0
TABLE
2
STYLE
5
3
100
AcDbSymbolTable
70
1
0
STYLE
5
11
100
AcDbSymbolTableRecord
100
AcDbTextStyleTableRecord
2
STANDARD
70
0
0
ENDTAB
0
TABLE
2
VIEW
5
6
100
AcDbSymbolTable
70
0
0
ENDTAB
0
TABLE
2
UCS
5
7
100
AcDbSymbolTable
70
0
0
ENDTAB
0
TABLE
2
APPID
5
9
100
AcDbSymbolTable
70
2
0
APPID
5
12
100
AcDbSymbolTableRecord
100
AcDbRegAppTableRecord
2
ACAD
70
0
0
ENDTAB
0
TABLE
2
DIMSTYLE
5
A
100
AcDbSymbolTable
70
1
0
ENDTAB
0
TABLE
2
BLOCK_RECORD
5
1
100
AcDbSymbolTable
70
1
0
BLOCK_RECORD
5
1F
100
AcDbSymbolTableRecord
100
AcDbBlockTableRecord
2
*MODEL_SPACE
0
BLOCK_RECORD
5
1B
100
AcDbSymbolTableRecord
100
AcDbBlockTableRecord
2
*PAPER_SPACE
0
ENDTAB
0
ENDSEC
0
SECTION
2
BLOCKS
0
BLOCK
5
20
100
AcDbEntity
100
AcDbBlockBegin
2
*MODEL_SPACE
0
ENDBLK
5
21
100
AcDbEntity
100
AcDbBlockEnd
0
BLOCK
5
1C
100
AcDbEntity
100
AcDbBlockBegin
2
*PAPER_SPACE
0
ENDBLK
5
1D
100
AcDbEntity
100
AcDbBlockEnd
0
ENDSEC
0
SECTION
2
ENTITIES
0
LWPOLYLINE
5
100
100
AcDbEntity
8
0
100
AcDbPolyline
90
4
70
1
43
0.0
10
-16.7064649520619
20
56.851928934746013
10
-15.106464952061902
20
56.851928934746013
10
-15.106464952061902
20
81.921195534745905
10
-16.7064649520619
20
81.921195534745905
0
LWPOLYLINE
5
101
100
AcDbEntity
8
0
100
AcDbPolyline
90
44
70
1
43
0.0
10
-8.952029810893114
20
-0.058948422588718241
10
-22.023858719798469
20
-0.058948422588721572
10
-22.082810954118351
20
5.7175967516087667e-06
10
-22.082810954118351
20
27.919280361808383
10
-25.021526089555309
20
27.919280361808383
10
-25.080478323875212
20
27.978232596128272
10
-25.080478323875212
20
46.046173787961678
10
-25.021526089555309
20
46.105126022281567
10
-22.082810954118372
20
46.105126022281567
10
-22.082810954118372
20
63.891281175428041
10
-25.021526089555309
20
63.891281175428041
10
-25.080478323875212
20
63.950233409747916
10
-25.080478323875212
20
82.018159354656632
10
-25.02152608955533
20
82.077111588976521
10
-22.082810954118372
20
82.077111588976507
10
-22.082810954118386
20
109.99638813905375
10
-22.02385871979849
20
110.05534799683599
10
-8.9520298108931495
20
110.05534799683599
10
-8.8930775765732495
20
109.99638813905375
10
-8.8930775765732495
20
107.0576730036168
10
8.8930852000355554
20
107.0576730036168
10
8.8930852000355554
20
109.99638813905375
10
8.9520374343554465
20
110.05534799683601
10
22.023858719798454
20
110.05534799683601
10
22.082810954118337
20
109.99638813905378
10
22.082810954118344
20
82.077111588976535
10
25.021526089555294
20
82.077111588976521
10
25.080478323875177
20
82.018159354656632
10
25.080478323875177
20
63.950225786285593
10
25.021526089555294
20
63.891273551965703
10
22.082810954118351
20
63.89127355196571
10
22.082810954118351
20
46.105118398819236
10
25.021526089555294
20
46.105118398819236
10
25.080478323875184
20
46.046166164499347
10
25.080478323875191
20
27.97822878439711
10
25.021526089555302
20
27.919276550077221
10
22.082810954118351
20
27.919276550077221
10
22.082810954118372
20
4.9960036108132044e-15
10
22.023858719798469
20
-0.05895414018547096
10
8.9520298108931318
20
-0.058954140185473736
10
8.8930775765732317
20
2.2204460492503131e-15
10
8.8930775765732317
20
2.9387132295713596
10
-8.8930775765732317
20
2.9387132295713565
10
-8.8930775765732317
20
-1.6566609195578508e-15
0
LWPOLYLINE
5
102
100
AcDbEntity
8
0
100
AcDbPolyline
90
4
70
1
43
0.0
10
4.9936520475614898
20
19.941626160152087
10
4.9936520475614898
20
25.936960899665742
10
1.9959846778046586
20
25.936960899665742
10
1.9959846778046497
20
19.941626160152087
0
LWPOLYLINE
5
103
100
AcDbEntity
8
0
100
AcDbPolyline
90
4
70
1
43
0.0
10
-1.9959719872696269
20
19.941626160152087
10
-1.9959719872696269
20
25.936960899665742
10
-4.9936393570264581
20
25.936960899665742
10
-4.9936393570264581
20
19.941626160152083
0
LINE
5
104
100
AcDbEntity
8
0
100
AcDbLine
10
-8.7915525478848711
20
14.884106529496663
30
0
11
-8.7915525478848533
21
9.1106038376004186
31
0
0
LINE
5
105
100
AcDbEntity
8
0
100
AcDbLine
10
-8.7915525478848533
20
9.1106038376004186
30
0
11
-13.791552547884853
21
6.2238524916522948
31
0
0
LINE
5
106
100
AcDbEntity
8
0
100
AcDbLine
10
-13.791552547884853
20
6.2238524916522948
30
0
11
-18.791552547884844
21
9.1106038376004186
31
0
0
LINE
5
107
100
AcDbEntity
8
0
100
AcDbLine
10
-18.791552547884844
20
9.1106038376004186
30
0
11
-18.791552547884855
21
14.884106529496661
31
0
0
LINE
5
108
100
AcDbEntity
8
0
100
AcDbLine
10
-18.791552547884855
20
14.884106529496661
30
0
11
-13.791552547884853
21
17.770857875444776
31
0
0
LINE
5
109
100
AcDbEntity
8
0
100
AcDbLine
10
-13.791552547884853
20
17.770857875444776
30
0
11
-8.7915525478848711
21
14.884106529496663
31
0
0
LWPOLYLINE
5
110
100
AcDbEntity
8
0
100
AcDbPolyline
90
6
70
1
43
0.0
10
9.2084474521151627
20
9.1106038376004879
10
14.208447452115154
20
6.2238524916523632
10
19.208447452115152
20
9.1106038376004879
10
19.208447452115138
20
14.884106529496732
10
14.208447452115154
20
17.770857875444847
10
9.2084474521151538
20
14.88410652949673
0
LWPOLYLINE
5
111
100
AcDbEntity
8
0
100
AcDbPolyline
90
6
70
1
43
0.0
10
2.2084474521150632
20
93.981093408475417
10
7.2084474521150543
20
91.094342062527289
10
12.208447452115054
20
93.981093408475417
10
12.208447452115037
20
99.754596100371657
10
7.2084474521150543
20
102.64134744631977
10
2.2084474521150543
20
99.754596100371657
0
LWPOLYLINE
5
112
100
AcDbEntity
8
0
100
AcDbPolyline
90
6
70
1
43
0.0
10
-11.791552547884914
20
69.732382102511124
10
-6.7915525478849226
20
66.845630756562997
10
-1.7915525478849226
20
69.732382102511124
10
-1.7915525478849403
20
75.505884794407365
10
-6.7915525478849226
20
78.392636140355478
10
-11.791552547884923
20
75.505884794407365
0
LWPOLYLINE
5
113
100
AcDbEntity
8
0
100
AcDbPolyline
90
6
70
1
43
0.0
10
-4.7915525478849297
20
81.85673775549327
10
0.20844745211506144
20
78.969986409545143
10
5.2084474521150614
20
81.85673775549327
10
5.2084474521150437
20
87.630240447389525
10
0.20844745211506144
20
90.516991793337638
10
-4.7915525478849386
20
87.630240447389525
0
LWPOLYLINE
5
114
100
AcDbEntity
8
0
100
AcDbPolyline
90
6
70
1
43
0.0
10
-11.79155254788494
20
93.981093408475388
10
-6.7915525478849492
20
91.094342062527261
10
-1.7915525478849492
20
93.981093408475388
10
-1.791552547884967
20
99.754596100371629
10
-6.7915525478849492
20
102.64134744631974
10
-11.791552547884949
20
99.754596100371629
0
LWPOLYLINE
5
115
100
AcDbEntity
8
0
100
AcDbPolyline
90
6
70
1
43
0.0
10
9.2084474521151272
20
33.35931514356475
10
14.208447452115118
20
30.47256379761663
10
19.208447452115117
20
33.35931514356475
10
19.208447452115102
20
39.132817835461005
10
14.208447452115118
20
42.019569181409118
10
9.2084474521151183
20
39.132817835460997
0
LWPOLYLINE
5
116
100
AcDbEntity
8
0
100
AcDbPolyline
90
6
70
1
43
0.0
10
9.2084474521151094
20
57.608026449529028
10
14.208447452115101
20
54.721275103580908
10
19.208447452115102
20
57.608026449529028
10
19.208447452115081
20
63.381529141425268
10
14.208447452115101
20
66.268280487373389
10
9.2084474521151005
20
63.381529141425268
0
LWPOLYLINE
5
117
100
AcDbEntity
8
0
100
AcDbPolyline
90
6
70
1
43
0.0
10
-4.7915525478848675
20
33.359315143564729
10
0.20844745211512361
20
30.472563797616601
10
5.2084474521151236
20
33.359315143564729
10
5.2084474521151058
20
39.132817835460969
10
0.20844745211512361
20
42.019569181409082
10
-4.7915525478848764
20
39.132817835460969
0
LWPOLYLINE
5
118
100
AcDbEntity
8
0
100
AcDbPolyline
90
6
70
1
43
0.0
10
2.2084474521150899
20
69.732382102511139
10
7.208447452115081
20
66.845630756563025
10
12.208447452115081
20
69.732382102511139
10
12.208447452115063
20
75.505884794407393
10
7.208447452115081
20
78.392636140355506
10
2.208447452115081
20
75.505884794407393
0
LWPOLYLINE
5
119
100
AcDbEntity
8
0
100
AcDbPolyline
90
6
70
1
43
0.0
10
9.2084474521150739
20
81.856737755493299
10
14.208447452115065
20
78.969986409545172
10
19.208447452115067
20
81.856737755493299
10
19.208447452115045
20
87.630240447389539
10
14.208447452115065
20
90.516991793337652
10
9.208447452115065
20
87.630240447389539
0
LWPOLYLINE
5
120
100
AcDbEntity
8
0
100
AcDbPolyline
90
6
70
1
43
0.0
10
-11.791552547884887
20
45.483670796546832
10
-6.7915525478848959
20
42.596919450598712
10
-1.7915525478848959
20
45.483670796546846
10
-1.7915525478849137
20
51.257173488443087
10
-6.7915525478848959
20
54.1439248343912
10
-11.791552547884896
20
51.25717348844308
0
LWPOLYLINE
5
121
100
AcDbEntity
8
0
100
AcDbPolyline
90
6
70
1
43
0.0
10
-4.7915525478848942
20
57.608026449528992
10
0.20844745211509697
20
54.721275103580865
10
5.208447452115097
20
57.608026449528992
10
5.2084474521150792
20
63.381529141425233
10
0.20844745211509697
20
66.268280487373346
10
-4.791552547884903
20
63.381529141425233
0
LWPOLYLINE
5
122
100
AcDbEntity
8
0
100
AcDbPolyline
90
6
70
1
43
0.0
10
2.2084474521151165
20
45.483670796546875
10
7.2084474521151076
20
42.596919450598747
10
12.208447452115108
20
45.483670796546882
10
12.20844745211509
20
51.257173488443122
10
7.2084474521151076
20
54.143924834391235
10
2.2084474521151076
20
51.257173488443115
0
LWPOLYLINE
5
123
100
AcDbEntity
8
0
100
AcDbPolyline
90
6
70
1
43
0.0
10
-18.791552547884869
20
33.359315143564686
10
-13.79155254788488
20
30.472563797616566
10
-8.7915525478848799
20
33.359315143564686
10
-8.7915525478848977
20
39.132817835460934
10
-13.79155254788488
20
42.019569181409047
10
-18.79155254788488
20
39.132817835460934
0
LWPOLYLINE
5
124
100
AcDbEntity
8
0
100
AcDbPolyline
90
6
70
1
43
0.0
10
-4.7915525478848409
20
9.1106038376004541
10
0.20844745211515026
20
6.2238524916523286
10
5.2084474521151503
20
9.1106038376004523
10
5.2084474521151325
20
14.884106529496698
10
0.20844745211515026
20
17.770857875444811
10
-4.7915525478848497
20
14.884106529496696
0
ENDSEC
0
SECTION
2
OBJECTS
0
DICTIONARY
5
C
100
AcDbDictionary
3
ACAD_GROUP
350
D
3
ACAD_MLINESTYLE
350
17
0
DICTIONARY
5
D
100
AcDbDictionary
0
DICTIONARY
5
1A
330
C
100
AcDbDictionary
0
DICTIONARY
5
17
100
AcDbDictionary
0
ENDSEC
0
EOF
